  0
SECTION
  2
HEADER
  9
$ACADVER
  1
AC1015
  9
$ACADMAINTVER
 70
     6
  9
$DWGCODEPAGE
  3
ANSI_1254
  9
$INSBASE
 10
0.0
 20
0.0
 30
0.0
  9
$EXTMIN
 10
0.0
 20
0.0
 30
0.0
  9
$EXTMAX
 10
279.4
 20
215.9
 30
0.0
  9
$LIMMIN
 10
0.0
 20
0.0
  9
$LIMMAX
 10
279.4
 20
215.9
  9
$ORTHOMODE
 70
     0
  9
$REGENMODE
 70
     1
  9
$FILLMODE
 70
     1
  9
$QTEXTMODE
 70
     0
  9
$MIRRTEXT
 70
     1
  9
$LTSCALE
 40
1.0
  9
$ATTMODE
 70
     1
  9
$TEXTSIZE
 40
3.5
  9
$TRACEWID
 40
1.0
  9
$TEXTSTYLE
  7
Standard
  9
$CLAYER
  8
0
  9
$CELTYPE
  6
ByLayer
  9
$CECOLOR
 62
   256
  9
$CELTSCALE
 40
1.0
  9
$DISPSILH
 70
     0
  9
$DIMSCALE
 40
1.0
  9
$DIMASZ
 40
3.5
  9
$DIMEXO
 40
1.0
  9
$DIMDLI
 40
3.75
  9
$DIMRND
 40
0.0
  9
$DIMDLE
 40
0.0
  9
$DIMEXE
 40
1.0
  9
$DIMTP
 40
0.0
  9
$DIMTM
 40
0.0
  9
$DIMTXT
 40
3.5
  9
$DIMCEN
 40
2.5
  9
$DIMTSZ
 40
0.0
  9
$DIMTOL
 70
     0
  9
$DIMLIM
 70
     0
  9
$DIMTIH
 70
     1
  9
$DIMTOH
 70
     1
  9
$DIMSE1
 70
     0
  9
$DIMSE2
 70
     0
  9
$DIMTAD
 70
     1
  9
$DIMZIN
 70
     0
  9
$DIMBLK
  1

  9
$DIMASO
 70
     1
  9
$DIMSHO
 70
     1
  9
$DIMPOST
  1

  9
$DIMAPOST
  1

  9
$DIMALT
 70
     0
  9
$DIMALTD
 70
     3
  9
$DIMALTF
 40
0.0393700787
  9
$DIMLFAC
 40
1.0
  9
$DIMTOFL
 70
     1
  9
$DIMTVP
 40
0.0
  9
$DIMTIX
 70
     0
  9
$DIMSOXD
 70
     0
  9
$DIMSAH
 70
     0
  9
$DIMBLK1
  1

  9
$DIMBLK2
  1

  9
$DIMSTYLE
  2
ISO-25
  9
$DIMCLRD
 70
     0
  9
$DIMCLRE
 70
     0
  9
$DIMCLRT
 70
     0
  9
$DIMTFAC
 40
1.0
  9
$DIMGAP
 40
1.524
  9
$DIMJUST
 70
     0
  9
$DIMSD1
 70
     0
  9
$DIMSD2
 70
     0
  9
$DIMTOLJ
 70
     0
  9
$DIMTZIN
 70
     0
  9
$DIMALTZ
 70
     0
  9
$DIMALTTZ
 70
     0
  9
$DIMUPT
 70
     0
  9
$DIMDEC
 70
     2
  9
$DIMTDEC
 70
     2
  9
$DIMALTU
 70
     2
  9
$DIMALTTD
 70
     3
  9
$DIMTXSTY
  7
Standard
  9
$DIMAUNIT
 70
     0
  9
$DIMADEC
 70
     2
  9
$DIMALTRND
 40
0.0
  9
$DIMAZIN
 70
     0
  9
$DIMDSEP
 70
    44
  9
$DIMATFIT
 70
     3
  9
$DIMFRAC
 70
     0
  9
$DIMLDRBLK
  1

  9
$DIMLUNIT
 70
     2
  9
$DIMLWD
 70
    -2
  9
$DIMLWE
 70
    -2
  9
$DIMTMOVE
 70
     0
  9
$LUNITS
 70
     2
  9
$LUPREC
 70
     2
  9
$SKETCHINC
 40
1.0
  9
$FILLETRAD
 40
10.0
  9
$AUNITS
 70
     0
  9
$AUPREC
 70
     2
  9
$MENU
  1
.
  9
$ELEVATION
 40
0.0
  9
$PELEVATION
 40
0.0
  9
$THICKNESS
 40
0.0
  9
$LIMCHECK
 70
     0
  9
$CHAMFERA
 40
0.0
  9
$CHAMFERB
 40
0.0
  9
$CHAMFERC
 40
0.0
  9
$CHAMFERD
 40
0.0
  9
$SKPOLY
 70
     0
  9
$TDCREATE
 40
2458985.69839037
  9
$TDUCREATE
 40
2458985.57339037
  9
$TDUPDATE
 40
2458985.698390775
  9
$TDUUPDATE
 40
2458985.573390775
  9
$TDINDWG
 40
0.0000000116
  9
$TDUSRTIMER
 40
0.0000000116
  9
$USRTIMER
 70
     1
  9
$ANGBASE
 50
0.0
  9
$ANGDIR
 70
     0
  9
$PDMODE
 70
     0
  9
$PDSIZE
 40
-1.0
  9
$PLINEWID
 40
0.0
  9
$SPLFRAME
 70
     0
  9
$SPLINETYPE
 70
     6
  9
$SPLINESEGS
 70
     8
  9
$HANDSEED
  5
E9
  9
$SURFTAB1
 70
     6
  9
$SURFTAB2
 70
     6
  9
$SURFTYPE
 70
     6
  9
$SURFU
 70
     6
  9
$SURFV
 70
     6
  9
$UCSBASE
  2

  9
$UCSNAME
  2

  9
$UCSORG
 10
0.0
 20
0.0
 30
0.0
  9
$UCSXDIR
 10
1.0
 20
0.0
 30
0.0
  9
$UCSYDIR
 10
0.0
 20
1.0
 30
0.0
  9
$UCSORTHOREF
  2

  9
$UCSORTHOVIEW
 70
     0
  9
$UCSORGTOP
 10
0.0
 20
0.0
 30
0.0
  9
$UCSORGBOTTOM
 10
0.0
 20
0.0
 30
0.0
  9
$UCSORGLEFT
 10
0.0
 20
0.0
 30
0.0
  9
$UCSORGRIGHT
 10
0.0
 20
0.0
 30
0.0
  9
$UCSORGFRONT
 10
0.0
 20
0.0
 30
0.0
  9
$UCSORGBACK
 10
0.0
 20
0.0
 30
0.0
  9
$PUCSBASE
  2

  9
$PUCSNAME
  2

  9
$PUCSORG
 10
0.0
 20
0.0
 30
0.0
  9
$PUCSXDIR
 10
1.0
 20
0.0
 30
0.0
  9
$PUCSYDIR
 10
0.0
 20
1.0
 30
0.0
  9
$PUCSORTHOREF
  2

  9
$PUCSORTHOVIEW
 70
     0
  9
$PUCSORGTOP
 10
0.0
 20
0.0
 30
0.0
  9
$PUCSORGBOTTOM
 10
0.0
 20
0.0
 30
0.0
  9
$PUCSORGLEFT
 10
0.0
 20
0.0
 30
0.0
  9
$PUCSORGRIGHT
 10
0.0
 20
0.0
 30
0.0
  9
$PUCSORGFRONT
 10
0.0
 20
0.0
 30
0.0
  9
$PUCSORGBACK
 10
0.0
 20
0.0
 30
0.0
  9
$USERI1
 70
     0
  9
$USERI2
 70
     0
  9
$USERI3
 70
     0
  9
$USERI4
 70
     0
  9
$USERI5
 70
     0
  9
$USERR1
 40
0.0
  9
$USERR2
 40
0.0
  9
$USERR3
 40
0.0
  9
$USERR4
 40
0.0
  9
$USERR5
 40
0.0
  9
$WORLDVIEW
 70
     1
  9
$SHADEDGE
 70
     3
  9
$SHADEDIF
 70
    70
  9
$TILEMODE
 70
     1
  9
$MAXACTVP
 70
    64
  9
$PINSBASE
 10
0.0
 20
0.0
 30
0.0
  9
$PLIMCHECK
 70
     0
  9
$PEXTMIN
 10
1.0000000000E+20
 20
1.0000000000E+20
 30
1.0000000000E+20
  9
$PEXTMAX
 10
-1.0000000000E+20
 20
-1.0000000000E+20
 30
-1.0000000000E+20
  9
$PLIMMIN
 10
0.0
 20
0.0
  9
$PLIMMAX
 10
420.0
 20
297.0
  9
$UNITMODE
 70
     0
  9
$VISRETAIN
 70
     1
  9
$PLINEGEN
 70
     0
  9
$PSLTSCALE
 70
     1
  9
$TREEDEPTH
 70
  3020
  9
$CMLSTYLE
  2
Standard
  9
$CMLJUST
 70
     0
  9
$CMLSCALE
 40
20.0
  9
$PROXYGRAPHICS
 70
     1
  9
$MEASUREMENT
 70
     1
  9
$CELWEIGHT
370
    -1
  9
$ENDCAPS
280
     0
  9
$JOINSTYLE
280
     0
  9
$LWDISPLAY
290
     1
  9
$INSUNITS
 70
     4
  9
$HYPERLINKBASE
  1

  9
$STYLESHEET
  1

  9
$XEDIT
290
     1
  9
$CEPSNTYPE
380
     0
  9
$PSTYLEMODE
290
     1
  9
$FINGERPRINTGUID
  2
{0d00058f-e3ca-4c6e-a60f-dee04719a4ba}
  9
$VERSIONGUID
  2
{FAEB1C32-E019-11D5-929B-00C0DF256EC4}
  9
$EXTNAMES
290
     1
  9
$PSVPSCALE
 40
0.0
  9
$OLESTARTUP
290
     0
  0
ENDSEC
  0
SECTION
  2
CLASSES
  0
CLASS
  1
ACDBDICTIONARYWDFLT
  2
AcDbDictionaryWithDefault
  3
ObjectDBX Classes
 90
        0
280
     0
281
     0
  0
CLASS
  1
VISUALSTYLE
  2
AcDbVisualStyle
  3
ObjectDBX Classes
 90
     4095
280
     0
281
     0
  0
CLASS
  1
MATERIAL
  2
AcDbMaterial
  3
ObjectDBX Classes
 90
     1153
280
     0
281
     0
  0
CLASS
  1
SCALE
  2
AcDbScale
  3
ObjectDBX Classes
 90
     1153
280
     0
281
     0
  0
CLASS
  1
TABLESTYLE
  2
AcDbTableStyle
  3
ObjectDBX Classes
 90
     4095
280
     0
281
     0
  0
CLASS
  1
MLEADERSTYLE
  2
AcDbMLeaderStyle
  3
ACDB_MLEADERSTYLE_CLASS
 90
     4095
280
     0
281
     0
  0
CLASS
  1
SUN
  2
AcDbSun
  3
SCENEOE
 90
     1153
280
     0
281
     0
  0
CLASS
  1
ACDBPLACEHOLDER
  2
AcDbPlaceHolder
  3
ObjectDBX Classes
 90
        0
280
     0
281
     0
  0
CLASS
  1
LAYOUT
  2
AcDbLayout
  3
ObjectDBX Classes
 90
        0
280
     0
281
     0
  0
ENDSEC
  0
SECTION
  2
TABLES
  0
TABLE
  2
VPORT
  5
8
330
0
100
AcDbSymbolTable
 70
     1
  0
VPORT
  5
29
330
8
100
AcDbSymbolTableRecord
100
AcDbViewportTableRecord
  2
*Active
 70
     0
 10
0.0
 20
0.0
 11
1.0
 21
1.0
 12
139.7
 22
107.95
 13
0.0
 23
0.0
 14
10.0
 24
10.0
 15
10.0
 25
10.0
 16
0.0
 26
0.0
 36
1.0
 17
0.0
 27
0.0
 37
0.0
 40
215.9
 41
1.2941176471
 42
50.0
 43
0.0
 44
0.0
 50
0.0
 51
0.0
 71
     0
 72
  2000
 73
     1
 74
     3
 75
     0
 76
     0
 77
     0
 78
     0
281
     0
 65
     1
110
0.0
120
0.0
130
0.0
111
1.0
121
0.0
131
0.0
112
0.0
122
1.0
132
0.0
 79
     0
146
0.0
  0
ENDTAB
  0
TABLE
  2
LTYPE
  5
5
330
0
100
AcDbSymbolTable
 70
     6
  0
LTYPE
  5
14
330
5
100
AcDbSymbolTableRecord
100
AcDbLinetypeTableRecord
  2
ByBlock
 70
     0
  3

 72
    65
 73
     0
 40
0.0
  0
LTYPE
  5
15
330
5
100
AcDbSymbolTableRecord
100
AcDbLinetypeTableRecord
  2
ByLayer
 70
     0
  3

 72
    65
 73
     0
 40
0.0
  0
LTYPE
  5
16
330
5
100
AcDbSymbolTableRecord
100
AcDbLinetypeTableRecord
  2
Continuous
 70
     0
  3
Solid line
 72
    65
 73
     0
 40
0.0
  0
LTYPE
  5
6E
330
5
100
AcDbSymbolTableRecord
100
AcDbLinetypeTableRecord
  2
HIDDEN
 70
     0
  3
Hidden __ __ __ __ __ __ __ __ __ __ __ __ __ __
 72
    65
 73
     2
 40
1.905
 49
1.27
 74
     0
 49
-0.635
 74
     0
  0
LTYPE
  5
6F
330
5
100
AcDbSymbolTableRecord
100
AcDbLinetypeTableRecord
  2
PHANTOM
 70
     0
  3
Phantom ______  __  __  ______  __  __  ______
 72
    65
 73
     6
 40
12.7
 49
6.35
 74
     0
 49
-1.27
 74
     0
 49
1.27
 74
     0
 49
-1.27
 74
     0
 49
1.27
 74
     0
 49
-1.27
 74
     0
  0
LTYPE
  5
70
330
5
100
AcDbSymbolTableRecord
100
AcDbLinetypeTableRecord
  2
CENTER
 70
     0
  3
Center ____ _ ____ _ ____ _ ____ _ ____ _ ____
 72
    65
 73
     4
 40
10.16
 49
6.35
 74
     0
 49
-1.27
 74
     0
 49
1.27
 74
     0
 49
-1.27
 74
     0
  0
LTYPE
  5
71
330
5
100
AcDbSymbolTableRecord
100
AcDbLinetypeTableRecord
  2
CENTERX2
 70
     0
  3
Center (2x) ________  __  ________  __  _____
 72
    65
 73
     4
 40
20.32
 49
12.7
 74
     0
 49
-2.54
 74
     0
 49
2.54
 74
     0
 49
-2.54
 74
     0
  0
LTYPE
  5
72
330
5
100
AcDbSymbolTableRecord
100
AcDbLinetypeTableRecord
  2
DOT2
 70
     0
  3
Dot (.5x) ........................................
 72
    65
 73
     2
 40
0.635
 49
0.0
 74
     0
 49
-0.635
 74
     0
  0
ENDTAB
  0
TABLE
  2
LAYER
  5
2
330
0
100
AcDbSymbolTable
 70
    17
  0
LAYER
  5
10
330
2
100
AcDbSymbolTableRecord
100
AcDbLayerTableRecord
  2
0
 70
     0
 62
     7
  6
Continuous
370
    -3
390
F
  0
LAYER
  5
73
330
2
100
AcDbSymbolTableRecord
100
AcDbLayerTableRecord
  2
FORMAT
 70
     0
 62
     7
  6
Continuous
370
    -3
390
F
  0
LAYER
  5
74
330
2
100
AcDbSymbolTableRecord
100
AcDbLayerTableRecord
  2
YARDIMCI_GEOMETRI
 70
     0
 62
    -6
  6
Continuous
290
     0
370
    -3
390
F
  0
LAYER
  5
75
330
2
100
AcDbSymbolTableRecord
100
AcDbLayerTableRecord
  2
SAYFA_CERCEVESI
 70
     0
 62
     7
  6
Continuous
370
    25
390
F
  0
LAYER
  5
76
330
2
100
AcDbSymbolTableRecord
100
AcDbLayerTableRecord
  2
ANTET
 70
     0
 62
     7
  6
Continuous
370
    -3
390
F
  0
LAYER
  5
77
330
2
100
AcDbSymbolTableRecord
100
AcDbLayerTableRecord
  2
OLCU
 70
     0
 62
   150
  6
Continuous
370
    -3
390
F
  0
LAYER
  5
78
330
2
100
AcDbSymbolTableRecord
100
AcDbLayerTableRecord
  2
METIN
 70
     0
 62
    96
  6
Continuous
370
    -3
390
F
  0
LAYER
  5
79
330
2
100
AcDbSymbolTableRecord
100
AcDbLayerTableRecord
  2
BALON
 70
     0
 62
     5
  6
Continuous
370
    -3
390
F
  0
LAYER
  5
7A
330
2
100
AcDbSymbolTableRecord
100
AcDbLayerTableRecord
  2
VURGU
 70
     0
 62
     7
  6
Continuous
370
    -3
390
F
  0
LAYER
  5
7B
330
2
100
AcDbSymbolTableRecord
100
AcDbLayerTableRecord
  2
SILIK
 70
     0
 62
     7
  6
Continuous
370
    -3
390
F
  0
LAYER
  5
7C
330
2
100
AcDbSymbolTableRecord
100
AcDbLayerTableRecord
  2
MODEL
 70
     0
 62
     7
  6
Continuous
370
    -3
390
F
  0
LAYER
  5
7D
330
2
100
AcDbSymbolTableRecord
100
AcDbLayerTableRecord
  2
DETAYLANDıRMA
 70
     0
 62
   190
  6
Continuous
370
    -3
390
F
  0
LAYER
  5
7E
330
2
100
AcDbSymbolTableRecord
100
AcDbLayerTableRecord
  2
TOLERANS
 70
     0
 62
   230
  6
Continuous
370
    -3
390
F
  0
LAYER
  5
7F
330
2
100
AcDbSymbolTableRecord
100
AcDbLayerTableRecord
  2
MERKEZ_CIZGILERI
 70
     0
 62
    30
  6
Continuous
370
    -3
390
F
  0
LAYER
  5
80
330
2
100
AcDbSymbolTableRecord
100
AcDbLayerTableRecord
  2
KESIT-DETAY_CIZGILERI
 70
     0
 62
     7
  6
Continuous
370
    -3
390
F
  0
LAYER
  5
81
330
2
100
AcDbSymbolTableRecord
100
AcDbLayerTableRecord
  2
\U+041E\U+0421\U+0415\U+0412\U+042B\U+0415
 70
     0
 62
     7
  6
Continuous
370
    -3
390
F
  0
LAYER
  5
82
330
2
100
AcDbSymbolTableRecord
100
AcDbLayerTableRecord
  2
\U+0412\U+041E\U+0414\U+042F\U+041D\U+042B\U+0415_\U+0417\U+041D\U+0410\U+041A\U+0418
 70
     0
 62
    11
  6
Continuous
370
    -3
390
F
  0
ENDTAB
  0
TABLE
  2
STYLE
  5
3
330
0
100
AcDbSymbolTable
 70
     1
  0
STYLE
  5
11
330
3
100
AcDbSymbolTableRecord
100
AcDbTextStyleTableRecord
  2
Standard
 70
     0
 40
0.0
 41
1.0
 50
0.0
 71
     0
 42
3.5
  3
txt
  4

  0
ENDTAB
  0
TABLE
  2
VIEW
  5
6
330
0
100
AcDbSymbolTable
 70
     0
  0
ENDTAB
  0
TABLE
  2
UCS
  5
7
330
0
100
AcDbSymbolTable
 70
     0
  0
ENDTAB
  0
TABLE
  2
APPID
  5
9
330
0
100
AcDbSymbolTable
 70
     1
  0
APPID
  5
12
330
9
100
AcDbSymbolTableRecord
100
AcDbRegAppTableRecord
  2
ACAD
 70
     0
  0
ENDTAB
  0
TABLE
  2
DIMSTYLE
  5
A
330
0
100
AcDbSymbolTable
 70
     1
100
AcDbDimStyleTable
  0
DIMSTYLE
105
27
330
A
100
AcDbSymbolTableRecord
100
AcDbDimStyleTableRecord
  2
ISO-25
 70
     0
 41
2.5
 42
0.625
 43
3.75
 44
1.25
 73
     0
 74
     0
 77
     1
 78
     8
140
2.5
141
2.5
143
0.0393700787
147
0.625
171
     3
172
     1
178
     0
271
     2
272
     2
274
     3
278
    44
283
     0
284
     8
340
11
  0
ENDTAB
  0
TABLE
  2
BLOCK_RECORD
  5
1
330
0
100
AcDbSymbolTable
 70
     2
  0
BLOCK_RECORD
  5
1F
330
1
100
AcDbSymbolTableRecord
100
AcDbBlockTableRecord
  2
*Model_Space
340
22
  0
BLOCK_RECORD
  5
1B
330
1
100
AcDbSymbolTableRecord
100
AcDbBlockTableRecord
  2
*Paper_Space
340
1E
  0
BLOCK_RECORD
  5
23
330
1
100
AcDbSymbolTableRecord
100
AcDbBlockTableRecord
  2
*Paper_Space0
340
26
  0
BLOCK_RECORD
  5
88
330
1
100
AcDbSymbolTableRecord
100
AcDbBlockTableRecord
  2
SW_CENTERMARKSYMBOL_0
340
0
102
{BLKREFS
331
93
102
}
  0
ENDTAB
  0
ENDSEC
  0
SECTION
  2
BLOCKS
  0
BLOCK
  5
20
330
1F
100
AcDbEntity
  8
0
100
AcDbBlockBegin
  2
*Model_Space
 70
     0
 10
0.0
 20
0.0
 30
0.0
  3
*Model_Space
  1

  0
ENDBLK
  5
21
330
1F
100
AcDbEntity
  8
0
100
AcDbBlockEnd
  0
BLOCK
  5
1C
330
1B
100
AcDbEntity
 67
     1
  8
0
100
AcDbBlockBegin
  2
*Paper_Space
 70
     0
 10
0.0
 20
0.0
 30
0.0
  3
*Paper_Space
  1

  0
ENDBLK
  5
1D
330
1B
100
AcDbEntity
 67
     1
  8
0
100
AcDbBlockEnd
  0
BLOCK
  5
24
330
23
100
AcDbEntity
  8
0
100
AcDbBlockBegin
  2
*Paper_Space0
 70
     0
 10
0.0
 20
0.0
 30
0.0
  3
*Paper_Space0
  1

  0
ENDBLK
  5
25
330
23
100
AcDbEntity
  8
0
100
AcDbBlockEnd
  0
BLOCK
  5
89
330
88
100
AcDbEntity
  8
0
100
AcDbBlockBegin
  2
SW_CENTERMARKSYMBOL_0
 70
     0
 10
0.0
 20
0.0
 30
0.0
  3
SW_CENTERMARKSYMBOL_0
  1

  0
LINE
  5
8B
330
88
100
AcDbEntity
  8
FORMAT
 62
     0
100
AcDbLine
 10
0.0
 20
0.0
 30
0.0
 11
0.0
 21
2.5
 31
0.0
  0
LINE
  5
8C
330
88
100
AcDbEntity
  8
FORMAT
 62
     0
100
AcDbLine
 10
0.0
 20
0.0
 30
0.0
 11
-2.5
 21
0.0
 31
0.0
  0
LINE
  5
8D
330
88
100
AcDbEntity
  8
FORMAT
 62
     0
100
AcDbLine
 10
0.0
 20
0.0
 30
0.0
 11
0.0
 21
-2.5
 31
0.0
  0
LINE
  5
8E
330
88
100
AcDbEntity
  8
FORMAT
 62
     0
100
AcDbLine
 10
0.0
 20
0.0
 30
0.0
 11
2.5
 21
0.0
 31
0.0
  0
LINE
  5
8F
330
88
100
AcDbEntity
  8
FORMAT
 62
     0
100
AcDbLine
 10
0.0
 20
5.0
 30
0.0
 11
0.0
 21
15.0
 31
0.0
  0
LINE
  5
90
330
88
100
AcDbEntity
  8
FORMAT
 62
     0
100
AcDbLine
 10
-5.0
 20
0.0
 30
0.0
 11
-15.0
 21
0.0
 31
0.0
  0
LINE
  5
91
330
88
100
AcDbEntity
  8
FORMAT
 62
     0
100
AcDbLine
 10
0.0
 20
-5.0
 30
0.0
 11
0.0
 21
-15.0
 31
0.0
  0
LINE
  5
92
330
88
100
AcDbEntity
  8
FORMAT
 62
     0
100
AcDbLine
 10
5.0
 20
0.0
 30
0.0
 11
15.0
 21
0.0
 31
0.0
  0
ENDBLK
  5
8A
330
88
100
AcDbEntity
  8
0
100
AcDbBlockEnd
  0
ENDSEC
  0
SECTION
  2
ENTITIES
  0
CIRCLE
  5
83
330
1F
100
AcDbEntity
  8
0
  6
Continuous
 62
     7
370
    25
100
AcDbCircle
 10
139.395004093
 20
107.5851680021
 30
0.0
 40
12.50000000000001
  0
CIRCLE
  5
84
330
1F
100
AcDbEntity
  8
0
  6
Continuous
 62
     7
370
    25
100
AcDbCircle
 10
139.395004093
 20
107.5851680021
 30
0.0
 40
9.5
  0
CIRCLE
  5
85
330
1F
100
AcDbEntity
  8
0
  6
Continuous
 62
     7
370
    25
100
AcDbCircle
 10
139.395004093
 20
107.5851680021
 30
0.0
 40
9.489214362520414
  0
CIRCLE
  5
86
330
1F
100
AcDbEntity
  8
0
  6
Continuous
 62
     7
370
    25
100
AcDbCircle
 10
139.395004093
 20
107.5851680021
 30
0.0
 40
7.010785637479557
  0
CIRCLE
  5
87
330
1F
100
AcDbEntity
  8
0
  6
Continuous
 62
     7
370
    25
100
AcDbCircle
 10
139.395004093
 20
107.5851680021
 30
0.0
 40
7.0
  0
INSERT
  5
93
330
1F
100
AcDbEntity
  8
FORMAT
 62
     7
100
AcDbBlockReference
  2
SW_CENTERMARKSYMBOL_0
 10
139.395004093
 20
107.5851680021
 30
0.0
  0
LINE
  5
94
330
1F
100
AcDbEntity
  8
0
  6
Continuous
 62
     7
370
    25
100
AcDbLine
 10
-16.4553899004
 20
120.0851681884
 30
0.0
 11
-57.3896694614
 21
120.0851681884
 31
0.0
  0
LINE
  5
95
330
1F
100
AcDbEntity
  8
0
  6
Continuous
 62
     7
370
    25
100
AcDbLine
 10
-57.3896694614
 20
95.0851678159
 30
0.0
 11
-16.4553899004
 21
95.0851678159
 31
0.0
  0
ARC
  5
96
330
1F
100
AcDbEntity
  8
0
  6
Continuous
 62
     7
370
    25
100
AcDbCircle
 10
-16.4553892415
 20
118.0851680021
 30
0.0
 40
2.000000000000016
100
AcDbArc
 50
86.2359651351
 51
90.0
  0
ARC
  5
97
330
1F
100
AcDbEntity
  8
0
  6
Continuous
 62
     7
370
    25
100
AcDbCircle
 10
-16.4553892415
 20
97.0851680021
 30
0.0
 40
2.000000000000014
100
AcDbArc
 50
270.0
 51
273.7640348649
  0
LINE
  5
98
330
1F
100
AcDbEntity
  8
0
  6
Continuous
 62
     7
370
    25
100
AcDbLine
 10
-16.3240939065
 20
95.0894826333
 30
0.0
 11
21.5447523014
 21
97.5808534081
 31
0.0
  0
LINE
  5
99
330
1F
100
AcDbEntity
  8
0
  6
Continuous
 62
     7
370
    25
100
AcDbLine
 10
21.5447523014
 20
117.5894825961
 30
0.0
 11
-16.3240939065
 21
120.0808533709
 31
0.0
  0
ARC
  5
9A
330
1F
100
AcDbEntity
  8
0
  6
Continuous
 62
     7
370
    25
100
AcDbCircle
 10
21.6760476364
 20
119.5851680021
 30
0.0
 40
1.999999999999988
100
AcDbArc
 50
266.2359651351
 51
270.0
  0
ARC
  5
9B
330
1F
100
AcDbEntity
  8
0
  6
Continuous
 62
     7
370
    25
100
AcDbCircle
 10
21.6760476364
 20
95.5851680021
 30
0.0
 40
1.999999999999988
100
AcDbArc
 50
90.0
 51
93.7640348649
  0
LINE
  5
9C
330
1F
100
AcDbEntity
  8
0
  6
Continuous
 62
     7
370
    25
100
AcDbLine
 10
62.6103278564
 20
117.5851677786
 30
0.0
 11
21.6760482953
 21
117.5851677786
 31
0.0
  0
LINE
  5
9D
330
1F
100
AcDbEntity
  8
0
  6
Continuous
 62
     7
370
    25
100
AcDbLine
 10
21.6760482953
 20
97.5851682256
 30
0.0
 11
62.6103278564
 21
97.5851682256
 31
0.0
  0
LINE
  5
9E
330
1F
100
AcDbEntity
  8
0
  6
Continuous
 62
     7
370
    25
100
AcDbLine
 10
-57.3896694614
 20
120.0851681884
 30
0.0
 11
-57.3896694614
 21
95.0851678159
 31
0.0
  0
LINE
  5
9F
330
1F
100
AcDbEntity
  8
0
  6
Continuous
 62
     7
370
    25
100
AcDbLine
 10
62.6103278564
 20
117.5851677786
 30
0.0
 11
62.6103278564
 21
97.5851682256
 31
0.0
  0
LINE
  5
A0
330
1F
100
AcDbEntity
  8
0
  6
Continuous
 62
     1
370
    25
100
AcDbLine
 10
-16.4553899004
 20
120.0851681884
 30
0.0
 11
-16.4553899004
 21
95.0851678159
 31
0.0
  0
LINE
  5
A1
330
1F
100
AcDbEntity
  8
0
  6
Continuous
 62
     1
370
    25
100
AcDbLine
 10
-16.3240939065
 20
120.0808533709
 30
0.0
 11
-16.3240939065
 21
95.0894826333
 31
0.0
  0
LINE
  5
A2
330
1F
100
AcDbEntity
  8
0
  6
Continuous
 62
     1
370
    25
100
AcDbLine
 10
21.5447523014
 20
117.5894825961
 30
0.0
 11
21.5447523014
 21
97.5808534081
 31
0.0
  0
LINE
  5
A3
330
1F
100
AcDbEntity
  8
0
  6
Continuous
 62
     1
370
    25
100
AcDbLine
 10
21.6760482953
 20
117.5851677786
 30
0.0
 11
21.6760482953
 21
97.5851682256
 31
0.0
  0
LINE
  5
A4
330
1F
100
AcDbEntity
  8
0
  6
Continuous
 62
     7
370
    25
100
AcDbLine
 10
283.795608053
 20
95.0851678159
 30
0.0
 11
324.729887614
 21
95.0851678159
 31
0.0
  0
LINE
  5
A5
330
1F
100
AcDbEntity
  8
0
  6
Continuous
 62
     7
370
    25
100
AcDbLine
 10
324.729887614
 20
120.0851681884
 30
0.0
 11
283.795608053
 21
120.0851681884
 31
0.0
  0
ARC
  5
A6
330
1F
100
AcDbEntity
  8
0
  6
Continuous
 62
     7
370
    25
100
AcDbCircle
 10
283.795607394
 20
97.0851680021
 30
0.0
 40
2.000000000000014
100
AcDbArc
 50
266.2359651351
 51
270.0
  0
ARC
  5
A7
330
1F
100
AcDbEntity
  8
0
  6
Continuous
 62
     7
370
    25
100
AcDbCircle
 10
283.795607394
 20
118.0851680021
 30
0.0
 40
2.000000000000019
100
AcDbArc
 50
90.0
 51
93.7640348649
  0
LINE
  5
A8
330
1F
100
AcDbEntity
  8
0
  6
Continuous
 62
     7
370
    25
100
AcDbLine
 10
283.664312059
 20
120.0808533709
 30
0.0
 11
245.7954658512
 21
117.5894825961
 31
0.0
  0
LINE
  5
A9
330
1F
100
AcDbEntity
  8
0
  6
Continuous
 62
     7
370
    25
100
AcDbLine
 10
245.7954658512
 20
97.5808534081
 30
0.0
 11
283.664312059
 21
95.0894826333
 31
0.0
  0
ARC
  5
AA
330
1F
100
AcDbEntity
  8
0
  6
Continuous
 62
     7
370
    25
100
AcDbCircle
 10
245.6641705162
 20
95.5851680021
 30
0.0
 40
1.999999999999987
100
AcDbArc
 50
86.2359651351
 51
90.0
  0
ARC
  5
AB
330
1F
100
AcDbEntity
  8
0
  6
Continuous
 62
     7
370
    25
100
AcDbCircle
 10
245.6641705162
 20
119.5851680021
 30
0.0
 40
1.999999999999987
100
AcDbArc
 50
270.0
 51
273.7640348649
  0
LINE
  5
AC
330
1F
100
AcDbEntity
  8
0
  6
Continuous
 62
     7
370
    25
100
AcDbLine
 10
204.7298902962
 20
97.5851682256
 30
0.0
 11
245.6641698573
 21
97.5851682256
 31
0.0
  0
LINE
  5
AD
330
1F
100
AcDbEntity
  8
0
  6
Continuous
 62
     7
370
    25
100
AcDbLine
 10
245.6641698573
 20
117.5851677786
 30
0.0
 11
204.7298902962
 21
117.5851677786
 31
0.0
  0
LINE
  5
AE
330
1F
100
AcDbEntity
  8
0
  6
Continuous
 62
     7
370
    25
100
AcDbLine
 10
324.729887614
 20
107.5851680021
 30
0.0
 11
324.729887614
 21
120.0851681884
 31
0.0
  0
LINE
  5
AF
330
1F
100
AcDbEntity
  8
0
  6
Continuous
 62
     7
370
    25
100
AcDbLine
 10
324.729887614
 20
95.0851678159
 30
0.0
 11
324.729887614
 21
107.5851680021
 31
0.0
  0
LINE
  5
B0
330
1F
100
AcDbEntity
  8
0
  6
Continuous
 62
     7
370
    25
100
AcDbLine
 10
204.7298902962
 20
107.5851680021
 30
0.0
 11
204.7298902962
 21
117.5851677786
 31
0.0
  0
LINE
  5
B1
330
1F
100
AcDbEntity
  8
0
  6
Continuous
 62
     7
370
    25
100
AcDbLine
 10
204.7298902962
 20
97.5851682256
 30
0.0
 11
204.7298902962
 21
107.5851680021
 31
0.0
  0
LINE
  5
B2
330
1F
100
AcDbEntity
  8
0
  6
Continuous
 62
     1
370
    25
100
AcDbLine
 10
283.795608053
 20
107.5851680021
 30
0.0
 11
283.795608053
 21
120.0851681884
 31
0.0
  0
LINE
  5
B3
330
1F
100
AcDbEntity
  8
0
  6
Continuous
 62
     1
370
    25
100
AcDbLine
 10
283.795608053
 20
95.0851678159
 30
0.0
 11
283.795608053
 21
107.5851680021
 31
0.0
  0
LINE
  5
B4
330
1F
100
AcDbEntity
  8
0
  6
Continuous
 62
     1
370
    25
100
AcDbLine
 10
283.664312059
 20
107.5851680021
 30
0.0
 11
283.664312059
 21
120.0808533709
 31
0.0
  0
LINE
  5
B5
330
1F
100
AcDbEntity
  8
0
  6
Continuous
 62
     1
370
    25
100
AcDbLine
 10
283.664312059
 20
95.0894826333
 30
0.0
 11
283.664312059
 21
107.5851680021
 31
0.0
  0
LINE
  5
B6
330
1F
100
AcDbEntity
  8
0
  6
Continuous
 62
     1
370
    25
100
AcDbLine
 10
245.7954658512
 20
107.5851680021
 30
0.0
 11
245.7954658512
 21
117.5894825961
 31
0.0
  0
LINE
  5
B7
330
1F
100
AcDbEntity
  8
0
  6
Continuous
 62
     1
370
    25
100
AcDbLine
 10
245.7954658512
 20
97.5808534081
 30
0.0
 11
245.7954658512
 21
107.5851680021
 31
0.0
  0
LINE
  5
B8
330
1F
100
AcDbEntity
  8
0
  6
Continuous
 62
     1
370
    25
100
AcDbLine
 10
245.6641698573
 20
107.5851680021
 30
0.0
 11
245.6641698573
 21
117.5851677786
 31
0.0
  0
LINE
  5
B9
330
1F
100
AcDbEntity
  8
0
  6
Continuous
 62
     1
370
    25
100
AcDbLine
 10
245.6641698573
 20
97.5851682256
 30
0.0
 11
245.6641698573
 21
107.5851680021
 31
0.0
  0
LINE
  5
BA
330
1F
100
AcDbEntity
  8
0
  6
Continuous
 62
     7
370
    25
100
AcDbLine
 10
151.8950042793
 20
283.1463846846
 30
0.0
 11
151.8950042793
 21
324.0806642456
 31
0.0
  0
LINE
  5
BB
330
1F
100
AcDbEntity
  8
0
  6
Continuous
 62
     7
370
    25
100
AcDbLine
 10
126.8950039068
 20
324.0806642456
 30
0.0
 11
126.8950039068
 21
283.1463846846
 31
0.0
  0
ARC
  5
BC
330
1F
100
AcDbEntity
  8
0
  6
Continuous
 62
     7
370
    25
100
AcDbCircle
 10
149.895004093
 20
283.1463840257
 30
0.0
 40
2.000000000000019
100
AcDbArc
 50
356.2359651351
 51
0.0
  0
ARC
  5
BD
330
1F
100
AcDbEntity
  8
0
  6
Continuous
 62
     7
370
    25
100
AcDbCircle
 10
128.895004093
 20
283.1463840257
 30
0.0
 40
2.000000000000033
100
AcDbArc
 50
180.0
 51
183.7640348649
  0
LINE
  5
BE
330
1F
100
AcDbEntity
  8
0
  6
Continuous
 62
     7
370
    25
100
AcDbLine
 10
126.8993187243
 20
283.0150886907
 30
0.0
 11
129.3906894991
 21
245.1462424828
 31
0.0
  0
LINE
  5
BF
330
1F
100
AcDbEntity
  8
0
  6
Continuous
 62
     7
370
    25
100
AcDbLine
 10
149.399318687
 20
245.1462424828
 30
0.0
 11
151.8906894618
 21
283.0150886907
 31
0.0
  0
ARC
  5
C0
330
1F
100
AcDbEntity
  8
0
  6
Continuous
 62
     7
370
    25
100
AcDbCircle
 10
151.395004093
 20
245.0149471478
 30
0.0
 40
2.0
100
AcDbArc
 50
176.2359651351
 51
180.0
  0
ARC
  5
C1
330
1F
100
AcDbEntity
  8
0
  6
Continuous
 62
     7
370
    25
100
AcDbCircle
 10
127.395004093
 20
245.0149471478
 30
0.0
 40
2.000000000000014
100
AcDbArc
 50
0.0
 51
3.7640348649
  0
LINE
  5
C2
330
1F
100
AcDbEntity
  8
0
  6
Continuous
 62
     7
370
    25
100
AcDbLine
 10
149.3950038695
 20
204.0806669278
 30
0.0
 11
149.3950038695
 21
245.0149464889
 31
0.0
  0
LINE
  5
C3
330
1F
100
AcDbEntity
  8
0
  6
Continuous
 62
     7
370
    25
100
AcDbLine
 10
129.3950043166
 20
245.0149464889
 30
0.0
 11
129.3950043166
 21
204.0806669278
 31
0.0
  0
LINE
  5
C4
330
1F
100
AcDbEntity
  8
0
  6
Continuous
 62
     7
370
    25
100
AcDbLine
 10
151.8950042793
 20
324.0806642456
 30
0.0
 11
126.8950039068
 21
324.0806642456
 31
0.0
  0
LINE
  5
C5
330
1F
100
AcDbEntity
  8
0
  6
Continuous
 62
     7
370
    25
100
AcDbLine
 10
149.3950038695
 20
204.0806669278
 30
0.0
 11
129.3950043166
 21
204.0806669278
 31
0.0
  0
LINE
  5
C6
330
1F
100
AcDbEntity
  8
0
  6
Continuous
 62
     1
370
    25
100
AcDbLine
 10
151.8950042793
 20
283.1463846846
 30
0.0
 11
126.8950039068
 21
283.1463846846
 31
0.0
  0
LINE
  5
C7
330
1F
100
AcDbEntity
  8
0
  6
Continuous
 62
     1
370
    25
100
AcDbLine
 10
151.8906894618
 20
283.0150886907
 30
0.0
 11
126.8993187243
 21
283.0150886907
 31
0.0
  0
LINE
  5
C8
330
1F
100
AcDbEntity
  8
0
  6
Continuous
 62
     1
370
    25
100
AcDbLine
 10
149.399318687
 20
245.1462424828
 30
0.0
 11
129.3906894991
 21
245.1462424828
 31
0.0
  0
LINE
  5
C9
330
1F
100
AcDbEntity
  8
0
  6
Continuous
 62
     1
370
    25
100
AcDbLine
 10
149.3950038695
 20
245.0149464889
 30
0.0
 11
129.3950043166
 21
245.0149464889
 31
0.0
  0
LINE
  5
CA
330
1F
100
AcDbEntity
  8
0
  6
Continuous
 62
     7
370
    25
100
AcDbLine
 10
126.8950039068
 20
-32.068690203
 30
0.0
 11
126.8950039068
 21
-73.0029697641
 31
0.0
  0
LINE
  5
CB
330
1F
100
AcDbEntity
  8
0
  6
Continuous
 62
     7
370
    25
100
AcDbLine
 10
151.8950042793
 20
-73.0029697641
 30
0.0
 11
151.8950042793
 21
-32.068690203
 31
0.0
  0
ARC
  5
CC
330
1F
100
AcDbEntity
  8
0
  6
Continuous
 62
     7
370
    25
100
AcDbCircle
 10
128.895004093
 20
-32.0686895441
 30
0.0
 40
2.00000000000003
100
AcDbArc
 50
176.2359651351
 51
180.0
  0
ARC
  5
CD
330
1F
100
AcDbEntity
  8
0
  6
Continuous
 62
     7
370
    25
100
AcDbCircle
 10
149.895004093
 20
-32.0686895441
 30
0.0
 40
2.000000000000016
100
AcDbArc
 50
0.0
 51
3.7640348649
  0
LINE
  5
CE
330
1F
100
AcDbEntity
  8
0
  6
Continuous
 62
     7
370
    25
100
AcDbLine
 10
151.8906894618
 20
-31.9373942091
 30
0.0
 11
149.399318687
 21
5.9314519988
 31
0.0
  0
LINE
  5
CF
330
1F
100
AcDbEntity
  8
0
  6
Continuous
 62
     7
370
    25
100
AcDbLine
 10
129.3906894991
 20
5.9314519988
 30
0.0
 11
126.8993187243
 21
-31.9373942091
 31
0.0
  0
ARC
  5
D0
330
1F
100
AcDbEntity
  8
0
  6
Continuous
 62
     7
370
    25
100
AcDbCircle
 10
127.395004093
 20
6.0627473338
 30
0.0
 40
2.000000000000014
100
AcDbArc
 50
356.2359651351
 51
0.0
  0
ARC
  5
D1
330
1F
100
AcDbEntity
  8
0
  6
Continuous
 62
     7
370
    25
100
AcDbCircle
 10
151.395004093
 20
6.0627473338
 30
0.0
 40
2.0
100
AcDbArc
 50
180.0
 51
183.7640348649
  0
LINE
  5
D2
330
1F
100
AcDbEntity
  8
0
  6
Continuous
 62
     7
370
    25
100
AcDbLine
 10
129.3950043166
 20
46.9970275537
 30
0.0
 11
129.3950043166
 21
6.0627479927
 31
0.0
  0
LINE
  5
D3
330
1F
100
AcDbEntity
  8
0
  6
Continuous
 62
     7
370
    25
100
AcDbLine
 10
149.3950038695
 20
6.0627479927
 30
0.0
 11
149.3950038695
 21
46.9970275537
 31
0.0
  0
LINE
  5
D4
330
1F
100
AcDbEntity
  8
0
  6
Continuous
 62
     7
370
    25
100
AcDbLine
 10
126.8950039068
 20
-73.0029697641
 30
0.0
 11
151.8950042793
 21
-73.0029697641
 31
0.0
  0
LINE
  5
D5
330
1F
100
AcDbEntity
  8
0
  6
Continuous
 62
     7
370
    25
100
AcDbLine
 10
129.3950043166
 20
46.9970275537
 30
0.0
 11
149.3950038695
 21
46.9970275537
 31
0.0
  0
LINE
  5
D6
330
1F
100
AcDbEntity
  8
0
  6
Continuous
 62
     1
370
    25
100
AcDbLine
 10
126.8950039068
 20
-32.068690203
 30
0.0
 11
151.8950042793
 21
-32.068690203
 31
0.0
  0
LINE
  5
D7
330
1F
100
AcDbEntity
  8
0
  6
Continuous
 62
     1
370
    25
100
AcDbLine
 10
126.8993187243
 20
-31.9373942091
 30
0.0
 11
151.8906894618
 21
-31.9373942091
 31
0.0
  0
LINE
  5
D8
330
1F
100
AcDbEntity
  8
0
  6
Continuous
 62
     1
370
    25
100
AcDbLine
 10
129.3906894991
 20
5.9314519988
 30
0.0
 11
149.399318687
 21
5.9314519988
 31
0.0
  0
LINE
  5
D9
330
1F
100
AcDbEntity
  8
0
  6
Continuous
 62
     1
370
    25
100
AcDbLine
 10
129.3950043166
 20
6.0627479927
 30
0.0
 11
149.3950038695
 21
6.0627479927
 31
0.0
  0
LINE
  5
DA
330
1F
100
AcDbEntity
  8
0
  6
Continuous
 62
     7
370
    25
100
AcDbLine
 10
260.4861841808
 20
1.6957499745
 30
0.0
 11
231.5412775202
 21
18.4052889171
 31
0.0
  0
LINE
  5
DB
330
1F
100
AcDbEntity
  8
0
  6
Continuous
 62
     7
370
    25
100
AcDbLine
 10
219.0422937366
 20
-3.245932764
 30
0.0
 11
247.9872003972
 21
-19.9554717066
 31
0.0
  0
SPLINE
  5
DC
330
1F
100
AcDbEntity
  8
0
  6
Continuous
 62
     7
370
    25
100
AcDbSpline
210
0.0
220
0.0
230
1.0
 70
     8
 71
     3
 72
     9
 73
     5
 74
     0
 42
0.000000001
 43
0.00000001
 40
0.0
 40
0.0
 40
0.0
 40
0.0
 40
0.7865982601928155
 40
1.0
 40
1.0
 40
1.0
 40
1.0
 10
260.8624198778309
 20
1.446111179714261
 30
0.0
 10
260.761153024326
 20
1.521999377122298
 30
0.0
 10
260.6324127783458
 20
1.618475814013271
 30
0.0
 10
260.4890956142002
 20
1.690382548919029
 30
0.0
 10
260.4585114820273
 20
1.705727571251776
 30
0.0
  0
SPLINE
  5
DD
330
1F
100
AcDbEntity
  8
0
  6
Continuous
 62
     7
370
    25
100
AcDbSpline
210
0.0
220
0.0
230
1.0
 70
     8
 71
     3
 72
     9
 73
     5
 74
     0
 42
0.000000001
 43
0.00000001
 40
0.0
 40
0.0
 40
0.0
 40
0.0
 40
0.4976791195272823
 40
1.0
 40
1.0
 40
1.0
 40
1.0
 10
247.9994973987901
 20
-19.95258083255857
 30
0.0
 10
248.0606509941626
 20
-19.99188007451934
 30
0.0
 10
248.1835285531618
 20
-20.07084509518988
 30
0.0
 10
248.3185375703512
 20
-20.1269413344239
 30
0.0
 10
248.3863554187375
 20
-20.15511964670715
 30
0.0
  0
LINE
  5
DE
330
1F
100
AcDbEntity
  8
0
  6
Continuous
 62
     7
370
    25
100
AcDbLine
 10
248.3796599967
 20
-20.1614290231
 30
0.0
 11
276.343254998
 21
-33.430873644
 31
0.0
  0
LINE
  5
DF
330
1F
100
AcDbEntity
  8
0
  6
Continuous
 62
     7
370
    25
100
AcDbLine
 10
286.3359240806
 20
-16.1211874587
 30
0.0
 11
260.8608011754
 21
1.4588837972
 31
0.0
  0
LINE
  5
E0
330
1F
100
AcDbEntity
  8
0
  6
Continuous
 62
     7
370
    25
100
AcDbLine
 10
315.1441909876
 20
-32.7443191696
 30
0.0
 11
286.2691967291
 21
-16.0751397976
 31
0.0
  0
LINE
  5
E1
330
1F
100
AcDbEntity
  8
0
  6
Continuous
 62
     7
370
    25
100
AcDbLine
 10
276.2700097022
 20
-33.3961165342
 30
0.0
 11
305.1450039607
 21
-50.0652959062
 31
0.0
  0
LWPOLYLINE
  5
E2
330
1F
100
AcDbEntity
  8
0
  6
Continuous
 62
     7
370
    25
100
AcDbPolyline
 90
       77
 70
   128
 43
0.0
 10
216.4529507319
 20
2.4771273016
 10
216.4831397292
 20
3.3374226395
 10
216.5735012553
 20
4.2266971842
 10
216.7234169369
 20
5.1388756557
 10
216.9318633959
 20
6.0677272973
 10
217.1974162003
 20
7.0069067502
 10
217.5182623774
 20
7.94999968
 10
217.8922096322
 20
8.8905625101
 10
218.3167028123
 20
9.8221703294
 10
218.7888436631
 20
10.7384598563
 10
219.3054059751
 20
11.6331720234
 10
219.8628609377
 20
12.5001947513
 10
220.4574011757
 20
13.3336045815
 10
221.0849651158
 20
14.1277100204
 10
221.7412662919
 20
14.8770859477
 10
222.4218206745
 20
15.5766122073
 10
223.121979927
 20
16.2215118174
 10
223.8369612054
 20
16.8073788196
 10
224.5618804143
 20
17.3302119263
 10
225.2917856284
 20
17.7864383772
 10
226.0216908424
 20
18.1729425484
 10
226.7466100514
 20
18.4870833448
 10
227.4615913298
 20
18.7267161555
 10
228.1617505823
 20
18.8902032113
 10
228.8423049649
 20
18.9764283166
 10
229.498606141
 20
18.9848015981
 10
230.1261700811
 20
18.9152660616
 10
230.7207103191
 20
18.7682977789
 10
231.2781652817
 20
18.5448988508
 10
231.7947275937
 20
18.2465968343
 10
232.2668684445
 20
17.8754295305
 10
232.6913616246
 20
17.4339311046
 10
233.0653088794
 20
16.9251185849
 10
233.3861550565
 20
16.352466766
 10
233.6517078609
 20
15.7198880549
 10
233.8601543199
 20
15.0317035721
 10
234.0100700015
 20
14.2926140623
 10
234.1004315276
 20
13.507668715
 10
234.1306205249
 20
12.6822288515
 10
234.1004315276
 20
11.8219335136
 10
234.0100700015
 20
10.9326589689
 10
233.8601543199
 20
10.0204804975
 10
233.6517078609
 20
9.0916288559
 10
233.3861550565
 20
8.152449403
 10
233.0653088794
 20
7.2093564731
 10
232.6913616246
 20
6.268793643
 10
232.2668684445
 20
5.3371858237
 10
231.7947275937
 20
4.4208962968
 10
231.2781652817
 20
3.5261841297
 10
230.7207103191
 20
2.6591614018
 10
230.1261700811
 20
1.8257515716
 10
229.498606141
 20
1.0316461327
 10
228.8423049649
 20
0.2822702054
 10
228.1617505823
 20
-0.4172560542
 10
227.4615913298
 20
-1.0621556643
 10
226.7466100514
 20
-1.6480226665
 10
226.0216908424
 20
-2.1708557732
 10
225.2917856284
 20
-2.6270822241
 10
224.5618804143
 20
-3.0135863953
 10
223.8369612054
 20
-3.3277271917
 10
223.121979927
 20
-3.5673600023
 10
222.4218206745
 20
-3.7308470582
 10
221.7412662919
 20
-3.8170721635
 10
221.0849651158
 20
-3.825445445
 10
220.4574011757
 20
-3.7559099085
 10
219.8628609377
 20
-3.6089416258
 10
219.3054059751
 20
-3.3855426977
 10
218.7888436631
 20
-3.0872406811
 10
218.3167028123
 20
-2.7160733774
 10
217.8922096322
 20
-2.2745749515
 10
217.5182623774
 20
-1.7657624317
 10
217.1974162003
 20
-1.1931106128
 10
216.9318633959
 20
-0.5605319018
 10
216.7234169369
 20
0.127652581
 10
216.5735012553
 20
0.8667420908
 10
216.4831397292
 20
1.6516874382
 10
216.4529507319
 20
2.4771273016
  0
LWPOLYLINE
  5
E3
330
1F
100
AcDbEntity
  8
0
  6
Continuous
 62
     7
370
    25
100
AcDbPolyline
 90
       67
 70
   128
 43
0.0
 10
218.5742714231
 20
3.7017396701
 10
218.6046889354
 20
4.4566621589
 10
218.6956655421
 20
5.2398669491
 10
218.8463780626
 20
6.0442617083
 10
219.0554606755
 20
6.8625611875
 10
219.321020724
 20
7.6873552337
 10
219.6406532034
 20
8.5111738555
 10
220.0114624937
 20
9.3265568033
 10
220.4300916642
 20
10.1261197272
 10
220.8927491448
 20
10.9026220454
 10
221.3952449462
 20
11.6490308199
 10
221.9330285258
 20
12.3585871032
 10
222.5012292883
 20
13.0248646805
 10
223.094701861
 20
13.641830427
 10
223.7080715328
 20
14.2038956349
 10
224.3357836455
 20
14.705970762
 10
224.9721534164
 20
15.1435101639
 10
225.6114178403
 20
15.5125496606
 10
226.2477876113
 20
15.8097471569
 10
226.8754997239
 20
16.0324130085
 10
227.4888693958
 20
16.1785293497
 10
228.0823419685
 20
16.2467724505
 10
228.650542731
 20
16.2365255097
 10
229.1883263106
 20
16.1478809308
 10
229.690822112
 20
15.9816414594
 10
230.1534795926
 20
15.7393120981
 10
230.5721087631
 20
15.4230881263
 10
230.9429180533
 20
15.0358324721
 10
231.2625505328
 20
14.5810536559
 10
231.5281105813
 20
14.0628687153
 10
231.7371931942
 20
13.4859708826
 10
231.8879057147
 20
12.8555850957
 10
231.9788823214
 20
12.1774196597
 10
232.0092998337
 20
11.457616483
 10
231.9788823214
 20
10.7026939942
 10
231.8879057147
 20
9.919489204
 10
231.7371931942
 20
9.1150944448
 10
231.5281105813
 20
8.2967949656
 10
231.2625505328
 20
7.4720009194
 10
230.9429180533
 20
6.6481822976
 10
230.5721087631
 20
5.8327993498
 10
230.1534795926
 20
5.0332364259
 10
229.690822112
 20
4.2567341077
 10
229.1883263106
 20
3.5103253332
 10
228.650542731
 20
2.8007690499
 10
228.0823419685
 20
2.1344914726
 10
227.4888693958
 20
1.5175257261
 10
226.8754997239
 20
0.9554605182
 10
226.2477876113
 20
0.4533853911
 10
225.6114178403
 20
0.0158459892
 10
224.9721534164
 20
-0.3531935075
 10
224.3357836455
 20
-0.6503910038
 10
223.7080715328
 20
-0.8730568554
 10
223.094701861
 20
-1.0191731966
 10
222.5012292883
 20
-1.0874162974
 10
221.9330285258
 20
-1.0771693566
 10
221.3952449462
 20
-0.9885247777
 10
220.8927491448
 20
-0.8222853063
 10
220.4300916642
 20
-0.579955945
 10
220.0114624937
 20
-0.2637319732
 10
219.6406532034
 20
0.123523681
 10
219.321020724
 20
0.5783024972
 10
219.0554606755
 20
1.0964874378
 10
218.8463780626
 20
1.6733852705
 10
218.6956655421
 20
2.3037710575
 10
218.6046889354
 20
2.9819364934
 10
218.5742714231
 20
3.7017396701
  0
LWPOLYLINE
  5
E4
330
1F
100
AcDbEntity
  8
0
  6
Continuous
 62
     7
370
    25
100
AcDbPolyline
 90
       35
 70
   128
 43
0.0
 10
315.1441909876
 20
-32.7443191696
 10
315.5375959278
 20
-33.010355547
 10
315.9421546363
 20
-33.3831790714
 10
316.2957647197
 20
-33.8264970977
 10
316.5953175186
 20
-34.3364136731
 10
316.8381808306
 20
-34.908447713
 10
317.02222163
 20
-35.5375715972
 10
317.1458212146
 20
-36.2182570838
 10
317.2078936442
 20
-36.9445222937
 10
317.2078936442
 20
-37.7099846105
 10
317.1458212146
 20
-38.5079171222
 10
317.02222163
 20
-39.3313076516
 10
316.8381808306
 20
-40.1729205199
 10
316.5953175186
 20
-41.0253585713
 10
316.2957647197
 20
-41.8811314465
 10
315.9421546363
 20
-42.7327189849
 10
315.5375959278
 20
-43.5726360517
 10
315.0856434174
 20
-44.3935023079
 10
314.5902687871
 20
-45.188103995
 10
314.0558253453
 20
-45.9494580007
 10
313.4870098314
 20
-46.6708734526
 10
312.8888212568
 20
-47.3460100802
 10
312.2665162885
 20
-47.9689351504
 10
311.6255638092
 20
-48.5341751741
 10
310.9715965148
 20
-49.0367613402
 10
310.3103615027
 20
-49.4722778115
 10
309.6476697901
 20
-49.8368977117
 10
308.9893450302
 20
-50.1274157728
 10
308.3411726805
 20
-50.3412784397
 10
307.7088489453
 20
-50.4766080226
 10
307.09793087
 20
-50.5322140153
 10
306.5137867449
 20
-50.5076080391
 10
305.9615500891
 20
-50.4030060716
 10
305.4460747047
 20
-50.2193277781
 10
305.1450039607
 20
-50.0652959062
  0
LWPOLYLINE
  5
E5
330
1F
100
AcDbEntity
  8
0
  6
Continuous
 62
     1
370
    25
100
AcDbPolyline
 90
       40
 70
   128
 43
0.0
 10
260.4861841808
 20
1.6957499745
 10
260.7396342543
 20
1.5370578916
 10
261.2117751051
 20
1.1658905879
 10
261.6362682852
 20
0.724392162
 10
262.01021554
 20
0.2155796422
 10
262.3310617171
 20
-0.3570721767
 10
262.5966145215
 20
-0.9896508877
 10
262.8050609805
 20
-1.6778353705
 10
262.9549766621
 20
-2.4169248803
 10
263.0453381882
 20
-3.2018702277
 10
263.0755271855
 20
-4.0273100911
 10
263.0453381882
 20
-4.887605429
 10
262.9549766621
 20
-5.7768799737
 10
262.8050609805
 20
-6.6890584452
 10
262.5966145215
 20
-7.6179100868
 10
262.3310617171
 20
-8.5570895397
 10
262.01021554
 20
-9.5001824695
 10
261.6362682852
 20
-10.4407452996
 10
261.2117751051
 20
-11.3723531189
 10
260.7396342543
 20
-12.2886426458
 10
260.2230719423
 20
-13.1833548129
 10
259.6656169797
 20
-14.0503775408
 10
259.0710767417
 20
-14.883787371
 10
258.4435128016
 20
-15.6778928099
 10
257.7872116255
 20
-16.4272687372
 10
257.1066572429
 20
-17.1267949968
 10
256.4064979904
 20
-17.7716946069
 10
255.691516712
 20
-18.3575616091
 10
254.966597503
 20
-18.8803947158
 10
254.236692289
 20
-19.3366211667
 10
253.5067870749
 20
-19.7231253379
 10
252.781867866
 20
-20.0372661344
 10
252.0668865876
 20
-20.276898945
 10
251.3667273351
 20
-20.4403860008
 10
250.6861729525
 20
-20.5266111061
 10
250.0298717764
 20
-20.5349843876
 10
249.4023078363
 20
-20.4654488511
 10
248.8077675983
 20
-20.3184805684
 10
248.2503126357
 20
-20.0950816403
 10
247.9872003972
 20
-19.9554717066
  0
LWPOLYLINE
  5
E6
330
1F
100
AcDbEntity
  8
0
  6
Continuous
 62
     1
370
    25
100
AcDbPolyline
 90
       39
 70
   128
 43
0.0
 10
260.8660938976
 20
1.4552250938
 10
261.0181775078
 20
1.3448216498
 10
261.4778323547
 20
0.9404818449
 10
261.8873462814
 20
0.4651290167
 10
262.2438480337
 20
-0.0779011753
 10
262.5448371181
 20
-0.6847997179
 10
262.788200924
 20
-1.3513110528
 10
262.9722338209
 20
-2.0727589336
 10
263.0956437446
 20
-2.8440834041
 10
263.1575660262
 20
-3.6598739749
 10
263.1575660262
 20
-4.5144084071
 10
263.0956437446
 20
-5.4016929224
 10
262.9722338209
 20
-6.3155034579
 10
262.788200924
 20
-7.2494311987
 10
262.5448371181
 20
-8.196924403
 10
262.2438480337
 20
-9.1513375455
 10
261.8873462814
 20
-10.1059758993
 10
261.4778323547
 20
-11.0541434432
 10
261.0181775078
 20
-11.9891894379
 10
260.511606633
 20
-12.9045551938
 10
259.9616732365
 20
-13.7938200758
 10
259.3722344136
 20
-14.6507467489
 10
258.7474245066
 20
-15.4693241421
 10
258.0916264584
 20
-16.2438113617
 10
257.4094398734
 20
-16.9687743815
 10
256.705650065
 20
-17.6391290056
 10
255.9851934829
 20
-18.2501737549
 10
255.2531235507
 20
-18.7976217566
 10
254.5145752693
 20
-19.2776333449
 10
253.7747291201
 20
-19.6868414625
 10
253.038774475
 20
-20.022375825
 10
252.311873541
 20
-20.2818829752
 10
251.5991250578
 20
-20.4635426772
 10
250.9055285305
 20
-20.5660801987
 10
250.2359487922
 20
-20.5887776441
 10
249.5950825823
 20
-20.5314742358
 10
248.9874254548
 20
-20.394573251
 10
248.4172391805
 20
-20.1790334629
 10
248.3821730026
 20
-20.1626201438
  0
LWPOLYLINE
  5
E7
330
1F
100
AcDbEntity
  8
0
  6
Continuous
 62
     1
370
    25
100
AcDbPolyline
 90
       35
 70
   128
 43
0.0
 10
286.3359240806
 20
-16.1211874587
 10
286.5021759466
 20
-16.2435993709
 10
286.9069088401
 20
-16.6165839396
 10
287.2606710472
 20
-17.0600932366
 10
287.5603535794
 20
-17.5702295979
 10
287.8033222585
 20
-18.1425102278
 10
287.9874414248
 20
-18.7719059849
 10
288.1110943514
 20
-19.4528852053
 10
288.1731937814
 20
-20.1794636333
 10
288.1731937814
 20
-20.9452561812
 10
288.1110943514
 20
-21.743533085
 10
287.9874414248
 20
-22.5672789356
 10
287.8033222585
 20
-23.4092541571
 10
287.5603535794
 20
-24.2620604528
 10
287.2606710472
 20
-25.1182029008
 10
286.9069088401
 20
-25.9701573482
 10
286.5021759466
 20
-26.8104365691
 10
286.0500281777
 20
-27.6316573729
 10
285.5544398497
 20
-28.4266014384
 10
285.0197659173
 20
-29.1882839424
 10
284.4507050956
 20
-29.9100105907
 10
283.852258207
 20
-30.5854385465
 10
283.2296847171
 20
-31.2086327002
 10
282.5884558138
 20
-31.7741159511
 10
281.9342063331
 20
-32.2769197732
 10
281.2726860683
 20
-32.7126244917
 10
280.6097084445
 20
-33.0774010798
 10
279.9510997284
 20
-33.3680442817
 10
279.3026478266
 20
-33.581999889
 10
278.6700512893
 20
-33.7173873365
 10
278.058869467
 20
-33.773017069
 10
277.4744731193
 20
-33.7484008028
 10
276.9219987289
 20
-33.6437535655
 10
276.4063007565
 20
-33.4599961629
 10
276.343254998
 20
-33.430873644
  0
LWPOLYLINE
  5
E8
330
1F
100
AcDbEntity
  8
0
  6
Continuous
 62
     1
370
    25
100
AcDbPolyline
 90
       35
 70
   128
 43
0.0
 10
286.2842217513
 20
-16.0855078398
 10
286.5926892672
 20
-16.3008166044
 10
286.9972479757
 20
-16.6736401287
 10
287.3508580591
 20
-17.1169581551
 10
287.650410858
 20
-17.6268747304
 10
287.89327417
 20
-18.1989087704
 10
288.0773149694
 20
-18.8280326546
 10
288.200914554
 20
-19.5087181412
 10
288.2629869837
 20
-20.2349833511
 10
288.2629869837
 20
-21.0004456679
 10
288.200914554
 20
-21.7983781796
 10
288.0773149694
 20
-22.621768709
 10
287.89327417
 20
-23.4633815773
 10
287.650410858
 20
-24.3158196287
 10
287.3508580591
 20
-25.1715925039
 10
286.9972479757
 20
-26.0231800422
 10
286.5926892672
 20
-26.863097109
 10
286.1407367568
 20
-27.6839633653
 10
285.6453621265
 20
-28.4785650524
 10
285.1109186847
 20
-29.239919058
 10
284.5421031708
 20
-29.96133451
 10
283.9439145962
 20
-30.6364711376
 10
283.3216096279
 20
-31.2593962077
 10
282.6806571486
 20
-31.8246362315
 10
282.0266898542
 20
-32.3272223976
 10
281.3654548421
 20
-32.7627388689
 10
280.7027631295
 20
-33.1273587691
 10
280.0444383696
 20
-33.4178768301
 10
279.3962660199
 20
-33.6317394971
 10
278.7639422847
 20
-33.76706908
 10
278.1530242094
 20
-33.8226750727
 10
277.5688800843
 20
-33.7980690964
 10
277.0166434285
 20
-33.693467129
 10
276.5011680441
 20
-33.5097888354
 10
276.2865019616
 20
-33.4039428668
  0
ENDSEC
  0
SECTION
  2
OBJECTS
  0
DICTIONARY
  5
C
330
0
100
AcDbDictionary
281
     1
  3
ACAD_GROUP
350
D
  3
ACAD_LAYOUT
350
1A
  3
ACAD_MLINESTYLE
350
17
  3
ACAD_PLOTSETTINGS
350
19
  3
ACAD_PLOTSTYLENAME
350
E
  3
ACAD_SCALELIST
350
47
  0
DICTIONARY
  5
D
102
{ACAD_REACTORS
330
C
102
}
330
C
100
AcDbDictionary
281
     1
  0
DICTIONARY
  5
1A
102
{ACAD_REACTORS
330
C
102
}
330
C
100
AcDbDictionary
281
     1
  3
Layout1
350
1E
  3
Layout2
350
26
  3
Model
350
22
  0
DICTIONARY
  5
17
102
{ACAD_REACTORS
330
C
102
}
330
C
100
AcDbDictionary
281
     1
  3
Standard
350
18
  0
DICTIONARY
  5
19
102
{ACAD_REACTORS
330
C
102
}
330
C
100
AcDbDictionary
281
     1
  0
ACDBDICTIONARYWDFLT
  5
E
102
{ACAD_REACTORS
330
C
102
}
330
C
100
AcDbDictionary
281
     1
  3
Normal
350
F
100
AcDbDictionaryWithDefault
340
F
  0
DICTIONARY
  5
47
102
{ACAD_REACTORS
330
C
102
}
330
C
100
AcDbDictionary
281
     1
  3
A0
350
48
  3
A1
350
49
  3
A2
350
4A
  3
A3
350
4B
  3
A4
350
4C
  3
A5
350
4D
  3
A6
350
4E
  3
A7
350
4F
  3
A8
350
50
  3
A9
350
51
  3
B0
350
52
  3
B1
350
53
  3
B2
350
54
  3
B3
350
55
  3
B4
350
56
  3
B5
350
57
  3
B6
350
58
  3
B7
350
59
  3
B8
350
5A
  3
B9
350
5B
  3
C0
350
5C
  3
C1
350
5D
  3
C2
350
5E
  3
C3
350
5F
  3
C4
350
60
  3
C5
350
61
  3
C6
350
62
  3
C7
350
63
  3
C8
350
64
  3
C9
350
65
  3
D0
350
66
  3
D1
350
67
  3
D2
350
68
  0
LAYOUT
  5
1E
102
{ACAD_REACTORS
330
1A
102
}
330
1A
100
AcDbPlotSettings
  1

  2
none_device
  4

  6

 40
0.0
 41
0.0
 42
0.0
 43
0.0
 44
0.0
 45
0.0
 46
0.0
 47
0.0
 48
0.0
 49
0.0
140
0.0
141
0.0
142
1.0
143
1.0
 70
   688
 72
     1
 73
     0
 74
     5
  7

 75
    16
147
1.0
148
0.0
149
0.0
100
AcDbLayout
  1
Layout1
 70
     1
 71
     1
 10
0.0
 20
0.0
 11
420.0
 21
297.0
 12
0.0
 22
0.0
 32
0.0
 14
1.0000000000E+20
 24
1.0000000000E+20
 34
1.0000000000E+20
 15
-1.0000000000E+20
 25
-1.0000000000E+20
 35
-1.0000000000E+20
146
0.0
 13
0.0
 23
0.0
 33
0.0
 16
1.0
 26
0.0
 36
0.0
 17
0.0
 27
1.0
 37
0.0
 76
     0
330
1B
  0
LAYOUT
  5
26
102
{ACAD_REACTORS
330
1A
102
}
330
1A
100
AcDbPlotSettings
  1

  2
none_device
  4

  6

 40
0.0
 41
0.0
 42
0.0
 43
0.0
 44
0.0
 45
0.0
 46
0.0
 47
0.0
 48
0.0
 49
0.0
140
0.0
141
0.0
142
1.0
143
1.0
 70
   688
 72
     1
 73
     0
 74
     5
  7

 75
    16
147
1.0
148
0.0
149
0.0
100
AcDbLayout
  1
Layout2
 70
     1
 71
     2
 10
0.0
 20
0.0
 11
0.0
 21
0.0
 12
0.0
 22
0.0
 32
0.0
 14
0.0
 24
0.0
 34
0.0
 15
0.0
 25
0.0
 35
0.0
146
0.0
 13
0.0
 23
0.0
 33
0.0
 16
1.0
 26
0.0
 36
0.0
 17
0.0
 27
1.0
 37
0.0
 76
     0
330
23
  0
LAYOUT
  5
22
102
{ACAD_REACTORS
330
1A
102
}
330
1A
100
AcDbPlotSettings
  1

  2
none_device
  4
Letter_(8.50_x_11.00_Inches)
  6

 40
6.35
 41
6.35
 42
6.35000508
 43
6.35000508
 44
215.9
 45
279.4
 46
0.0
 47
0.0
 48
0.0
 49
0.0
140
0.0
141
0.0
142
1.0
143
1.0
 70
  1712
 72
     1
 73
     0
 74
     0
  7

 75
     0
147
1.0
148
0.0
149
0.0
100
AcDbLayout
  1
Model
 70
     1
 71
     0
 10
0.0
 20
0.0
 11
279.4
 21
215.9
 12
0.0
 22
0.0
 32
0.0
 14
0.0
 24
0.0
 34
0.0
 15
279.4
 25
215.9
 35
0.0
146
0.0
 13
0.0
 23
0.0
 33
0.0
 16
1.0
 26
0.0
 36
0.0
 17
0.0
 27
1.0
 37
0.0
 76
     0
330
1F
331
29
  0
MLINESTYLE
  5
18
102
{ACAD_REACTORS
330
17
102
}
330
17
100
AcDbMlineStyle
  2
Standard
 70
     0
  3

 62
   256
 51
90.0
 52
90.0
 71
     2
 49
0.5
 62
   256
  6
BYLAYER
 49
-0.5
 62
   256
  6
BYLAYER
  0
ACDBPLACEHOLDER
  5
F
102
{ACAD_REACTORS
330
E
102
}
330
E
  0
SCALE
  5
48
102
{ACAD_REACTORS
330
47
102
}
330
47
100
AcDbScale
 70
     0
300
1:1
140
1.0
141
1.0
290
     1
  0
SCALE
  5
49
102
{ACAD_REACTORS
330
47
102
}
330
47
100
AcDbScale
 70
     0
300
1:2
140
1.0
141
2.0
290
     0
  0
SCALE
  5
4A
102
{ACAD_REACTORS
330
47
102
}
330
47
100
AcDbScale
 70
     0
300
1:4
140
1.0
141
4.0
290
     0
  0
SCALE
  5
4B
102
{ACAD_REACTORS
330
47
102
}
330
47
100
AcDbScale
 70
     0
300
1:5
140
1.0
141
5.0
290
     0
  0
SCALE
  5
4C
102
{ACAD_REACTORS
330
47
102
}
330
47
100
AcDbScale
 70
     0
300
1:8
140
1.0
141
8.0
290
     0
  0
SCALE
  5
4D
102
{ACAD_REACTORS
330
47
102
}
330
47
100
AcDbScale
 70
     0
300
1:10
140
1.0
141
10.0
290
     0
  0
SCALE
  5
4E
102
{ACAD_REACTORS
330
47
102
}
330
47
100
AcDbScale
 70
     0
300
1:16
140
1.0
141
16.0
290
     0
  0
SCALE
  5
4F
102
{ACAD_REACTORS
330
47
102
}
330
47
100
AcDbScale
 70
     0
300
1:20
140
1.0
141
20.0
290
     0
  0
SCALE
  5
50
102
{ACAD_REACTORS
330
47
102
}
330
47
100
AcDbScale
 70
     0
300
1:30
140
1.0
141
30.0
290
     0
  0
SCALE
  5
51
102
{ACAD_REACTORS
330
47
102
}
330
47
100
AcDbScale
 70
     0
300
1:40
140
1.0
141
40.0
290
     0
  0
SCALE
  5
52
102
{ACAD_REACTORS
330
47
102
}
330
47
100
AcDbScale
 70
     0
300
1:50
140
1.0
141
50.0
290
     0
  0
SCALE
  5
53
102
{ACAD_REACTORS
330
47
102
}
330
47
100
AcDbScale
 70
     0
300
1:100
140
1.0
141
100.0
290
     0
  0
SCALE
  5
54
102
{ACAD_REACTORS
330
47
102
}
330
47
100
AcDbScale
 70
     0
300
2:1
140
2.0
141
1.0
290
     0
  0
SCALE
  5
55
102
{ACAD_REACTORS
330
47
102
}
330
47
100
AcDbScale
 70
     0
300
4:1
140
4.0
141
1.0
290
     0
  0
SCALE
  5
56
102
{ACAD_REACTORS
330
47
102
}
330
47
100
AcDbScale
 70
     0
300
8:1
140
8.0
141
1.0
290
     0
  0
SCALE
  5
57
102
{ACAD_REACTORS
330
47
102
}
330
47
100
AcDbScale
 70
     0
300
10:1
140
10.0
141
1.0
290
     0
  0
SCALE
  5
58
102
{ACAD_REACTORS
330
47
102
}
330
47
100
AcDbScale
 70
     0
300
100:1
140
100.0
141
1.0
290
     0
  0
SCALE
  5
59
102
{ACAD_REACTORS
330
47
102
}
330
47
100
AcDbScale
 70
     0
300
1/128" = 1'-0"
140
0.0078125
141
12.0
290
     0
  0
SCALE
  5
5A
102
{ACAD_REACTORS
330
47
102
}
330
47
100
AcDbScale
 70
     0
300
1/64" = 1'-0"
140
0.015625
141
12.0
290
     0
  0
SCALE
  5
5B
102
{ACAD_REACTORS
330
47
102
}
330
47
100
AcDbScale
 70
     0
300
1/32" = 1'-0"
140
0.03125
141
12.0
290
     0
  0
SCALE
  5
5C
102
{ACAD_REACTORS
330
47
102
}
330
47
100
AcDbScale
 70
     0
300
1/16" = 1'-0"
140
0.0625
141
12.0
290
     0
  0
SCALE
  5
5D
102
{ACAD_REACTORS
330
47
102
}
330
47
100
AcDbScale
 70
     0
300
3/32" = 1'-0"
140
0.09375
141
12.0
290
     0
  0
SCALE
  5
5E
102
{ACAD_REACTORS
330
47
102
}
330
47
100
AcDbScale
 70
     0
300
1/8" = 1'-0"
140
0.125
141
12.0
290
     0
  0
SCALE
  5
5F
102
{ACAD_REACTORS
330
47
102
}
330
47
100
AcDbScale
 70
     0
300
3/16" = 1'-0"
140
0.1875
141
12.0
290
     0
  0
SCALE
  5
60
102
{ACAD_REACTORS
330
47
102
}
330
47
100
AcDbScale
 70
     0
300
1/4" = 1'-0"
140
0.25
141
12.0
290
     0
  0
SCALE
  5
61
102
{ACAD_REACTORS
330
47
102
}
330
47
100
AcDbScale
 70
     0
300
3/8" = 1'-0"
140
0.375
141
12.0
290
     0
  0
SCALE
  5
62
102
{ACAD_REACTORS
330
47
102
}
330
47
100
AcDbScale
 70
     0
300
1/2" = 1'-0"
140
0.5
141
12.0
290
     0
  0
SCALE
  5
63
102
{ACAD_REACTORS
330
47
102
}
330
47
100
AcDbScale
 70
     0
300
3/4" = 1'-0"
140
0.75
141
12.0
290
     0
  0
SCALE
  5
64
102
{ACAD_REACTORS
330
47
102
}
330
47
100
AcDbScale
 70
     0
300
1" = 1'-0"
140
1.0
141
12.0
290
     0
  0
SCALE
  5
65
102
{ACAD_REACTORS
330
47
102
}
330
47
100
AcDbScale
 70
     0
300
1-1/2" = 1'-0"
140
1.5
141
12.0
290
     0
  0
SCALE
  5
66
102
{ACAD_REACTORS
330
47
102
}
330
47
100
AcDbScale
 70
     0
300
3" = 1'-0"
140
3.0
141
12.0
290
     0
  0
SCALE
  5
67
102
{ACAD_REACTORS
330
47
102
}
330
47
100
AcDbScale
 70
     0
300
6" = 1'-0"
140
6.0
141
12.0
290
     0
  0
SCALE
  5
68
102
{ACAD_REACTORS
330
47
102
}
330
47
100
AcDbScale
 70
     0
300
1'-0" = 1'-0"
140
12.0
141
12.0
290
     0
  0
ENDSEC
  0
EOF
